  0
SECTION
  2
HEADER
  9
$ACADVER
  1
AC1009
  9
$INSBASE
 10
0.0
 20
0.0
 30
0.0
  9
$EXTMIN
 10
9.222993
 20
8.516357
 30
0.0
  9
$EXTMAX
 10
35.959283
 20
26.517264
 30
0.0
  9
$LIMMIN
 10
0.0
 20
0.0
  9
$LIMMAX
 10
44.0
 20
34.0
  9
$ORTHOMODE
 70
     0
  9
$REGENMODE
 70
     1
  9
$FILLMODE
 70
     1
  9
$QTEXTMODE
 70
     0
  9
$MIRRTEXT
 70
     1
  9
$DRAGMODE
 70
     2
  9
$LTSCALE
 40
1.0
  9
$OSMODE
 70
     0
  9
$ATTMODE
 70
     1
  9
$TEXTSIZE
 40
0.375
  9
$TRACEWID
 40
0.05
  9
$TEXTSTYLE
  7
ROMAND
  9
$CLAYER
  8
0
  9
$CELTYPE
  6
BYLAYER
  9
$CECOLOR
 62
   256
  9
$DIMSCALE
 40
1.0
  9
$DIMASZ
 40
0.25
  9
$DIMEXO
 40
0.0625
  9
$DIMDLI
 40
0.38
  9
$DIMRND
 40
0.0
  9
$DIMDLE
 40
0.0
  9
$DIMEXE
 40
0.18
  9
$DIMTP
 40
0.0
  9
$DIMTM
 40
0.0
  9
$DIMTXT
 40
0.18
  9
$DIMCEN
 40
0.09
  9
$DIMTSZ
 40
0.0
  9
$DIMTOL
 70
     0
  9
$DIMLIM
 70
     0
  9
$DIMTIH
 70
     1
  9
$DIMTOH
 70
     1
  9
$DIMSE1
 70
     0
  9
$DIMSE2
 70
     0
  9
$DIMTAD
 70
     0
  9
$DIMZIN
 70
     0
  9
$DIMBLK
  1

  9
$DIMASO
 70
     1
  9
$DIMSHO
 70
     0
  9
$DIMPOST
  1

  9
$DIMAPOST
  1

  9
$DIMALT
 70
     0
  9
$DIMALTD
 70
     2
  9
$DIMALTF
 40
25.4
  9
$DIMLFAC
 40
1.0
  9
$DIMTOFL
 70
     0
  9
$DIMTVP
 40
0.0
  9
$DIMTIX
 70
     0
  9
$DIMSOXD
 70
     0
  9
$DIMSAH
 70
     0
  9
$DIMBLK1
  1

  9
$DIMBLK2
  1

  9
$DIMSTYLE
  2
*UNNAMED
  9
$DIMCLRD
 70
     0
  9
$DIMCLRE
 70
     0
  9
$DIMCLRT
 70
     0
  9
$DIMTFAC
 40
1.0
  9
$DIMGAP
 40
0.09
  9
$LUNITS
 70
     4
  9
$LUPREC
 70
     4
  9
$SKETCHINC
 40
0.1
  9
$FILLETRAD
 40
0.0
  9
$AUNITS
 70
     0
  9
$AUPREC
 70
     0
  9
$MENU
  1
acad
  9
$ELEVATION
 40
0.0
  9
$PELEVATION
 40
0.0
  9
$THICKNESS
 40
0.0
  9
$LIMCHECK
 70
     0
  9
$BLIPMODE
 70
     1
  9
$CHAMFERA
 40
0.0
  9
$CHAMFERB
 40
0.0
  9
$SKPOLY
 70
     0
  9
$TDCREATE
 40
2449086.302335532
  9
$TDUPDATE
 40
2450196.446109953
  9
$TDINDWG
 40
0.0128776620
  9
$TDUSRTIMER
 40
0.0128776620
  9
$USRTIMER
 70
     1
  9
$ANGBASE
 50
0.0
  9
$ANGDIR
 70
     0
  9
$PDMODE
 70
     0
  9
$PDSIZE
 40
0.0
  9
$PLINEWID
 40
0.0
  9
$COORDS
 70
     2
  9
$SPLFRAME
 70
     0
  9
$SPLINETYPE
 70
     6
  9
$SPLINESEGS
 70
     8
  9
$ATTDIA
 70
     0
  9
$ATTREQ
 70
     1
  9
$HANDLING
 70
     0
  9
$HANDSEED
  5
0
  9
$SURFTAB1
 70
     6
  9
$SURFTAB2
 70
     6
  9
$SURFTYPE
 70
     6
  9
$SURFU
 70
     6
  9
$SURFV
 70
     6
  9
$UCSNAME
  2

  9
$UCSORG
 10
0.0
 20
0.0
 30
0.0
  9
$UCSXDIR
 10
1.0
 20
0.0
 30
0.0
  9
$UCSYDIR
 10
0.0
 20
1.0
 30
0.0
  9
$PUCSNAME
  2

  9
$PUCSORG
 10
0.0
 20
0.0
 30
0.0
  9
$PUCSXDIR
 10
1.0
 20
0.0
 30
0.0
  9
$PUCSYDIR
 10
0.0
 20
1.0
 30
0.0
  9
$USERI1
 70
     0
  9
$USERI2
 70
     0
  9
$USERI3
 70
     0
  9
$USERI4
 70
     0
  9
$USERI5
 70
     0
  9
$USERR1
 40
0.0
  9
$USERR2
 40
0.0
  9
$USERR3
 40
0.0
  9
$USERR4
 40
0.0
  9
$USERR5
 40
0.0
  9
$WORLDVIEW
 70
     1
  9
$SHADEDGE
 70
     3
  9
$SHADEDIF
 70
    70
  9
$TILEMODE
 70
     1
  9
$MAXACTVP
 70
    16
  9
$PINSBASE
 10
0.0
 20
0.0
 30
0.0
  9
$PLIMCHECK
 70
     0
  9
$PEXTMIN
 10
1.000000E+20
 20
1.000000E+20
 30
1.000000E+20
  9
$PEXTMAX
 10
-1.000000E+20
 20
-1.000000E+20
 30
-1.000000E+20
  9
$PLIMMIN
 10
0.0
 20
0.0
  9
$PLIMMAX
 10
12.0
 20
9.0
  9
$UNITMODE
 70
     0
  9
$VISRETAIN
 70
     0
  9
$PLINEGEN
 70
     0
  9
$PSLTSCALE
 70
     0
  9
$TREEDEPTH
 70
  3020
  9
$DWGCODEPAGE
  3
undefined
  0
ENDSEC
  0
SECTION
  2
TABLES
  0
TABLE
  2
VPORT
 70
     2
  0
VPORT
  2
*ACTIVE
 70
     0
 10
0.0
 20
0.0
 11
1.0
 21
1.0
 12
30.047619
 22
17.0
 13
0.0
 23
0.0
 14
1.0
 24
1.0
 15
0.0
 25
0.0
 16
0.0
 26
0.0
 36
1.0
 17
0.0
 27
0.0
 37
0.0
 40
34.0
 41
1.767507
 42
50.0
 43
0.0
 44
0.0
 50
0.0
 51
0.0
 71
     0
 72
   100
 73
     1
 74
     1
 75
     0
 76
     1
 77
     0
 78
     0
  0
ENDTAB
  0
TABLE
  2
LTYPE
 70
     3
  0
LTYPE
  2
CONTINUOUS
 70
    64
  3
Solid line
 72
    65
 73
     0
 40
0.0
  0
LTYPE
  2
DASHED
 70
     0
  3
__ __ __ __ __ __ __ __ __ __ __ __ __ __ __
 72
    65
 73
     2
 40
0.75
 49
0.5
 49
-0.25
  0
LTYPE
  2
HIDDEN
 70
     0
  3
_ _ _ _ _ _ _ _ _ _ _ _ _ _ _ _ _ _ _ _ _ _ _
 72
    65
 73
     2
 40
0.375
 49
0.25
 49
-0.125
  0
ENDTAB
  0
TABLE
  2
LAYER
 70
     6
  0
LAYER
  2
0
 70
    64
 62
     7
  6
CONTINUOUS
  0
LAYER
  2
DIM
 70
    64
 62
     6
  6
CONTINUOUS
  0
LAYER
  2
PANEL
 70
    64
 62
     4
  6
CONTINUOUS
  0
LAYER
  2
WOOD
 70
    64
 62
     2
  6
CONTINUOUS
  0
LAYER
  2
CLIP
 70
    64
 62
     9
  6
CONTINUOUS
  0
LAYER
  2
FLASH
 70
    64
 62
     1
  6
CONTINUOUS
  0
ENDTAB
  0
TABLE
  2
STYLE
 70
     2
  0
STYLE
  2
STANDARD
 70
     0
 40
0.0
 41
1.0
 50
0.0
 71
     0
 42
0.2
  3
txt
  4

  0
STYLE
  2
ROMAND
 70
    64
 40
0.375
 41
1.0
 50
0.0
 71
     0
 42
0.375
  3
romand
  4

  0
ENDTAB
  0
TABLE
  2
VIEW
 70
     0
  0
ENDTAB
  0
TABLE
  2
UCS
 70
     0
  0
ENDTAB
  0
TABLE
  2
APPID
 70
     1
  0
APPID
  2
ACAD
 70
    64
  0
ENDTAB
  0
TABLE
  2
DIMSTYLE
 70
     0
  0
ENDTAB
  0
ENDSEC
  0
SECTION
  2
BLOCKS
  0
ENDSEC
  0
SECTION
  2
ENTITIES
  0
LINE
  8
DIM
 10
26.583312
 20
15.777606
 30
0.0
 11
28.721927
 21
11.478112
 31
0.0
  0
SOLID
  8
DIM
 10
26.546006
 20
15.75905
 30
0.0
 11
26.620619
 21
15.796163
 31
0.0
 12
26.471973
 22
16.001445
 32
0.0
 13
26.471973
 23
16.001445
 33
0.0
  0
TEXT
  8
DIM
 10
21.591143
 20
20.742668
 30
0.0
 40
0.375
  1
INTEGRAL BATTEN PANEL
  7
ROMAND
  0
LINE
  8
DIM
 10
20.558104
 20
20.930168
 30
0.0
 11
21.341143
 21
20.930168
 31
0.0
  0
LINE
  8
DIM
 10
18.599236
 20
18.125217
 30
0.0
 11
20.558104
 21
20.930168
 31
0.0
  0
SOLID
  8
DIM
 10
18.633397
 20
18.10136
 30
0.0
 11
18.565075
 21
18.149073
 31
0.0
 12
18.456096
 22
17.920251
 32
0.0
 13
18.456096
 23
17.920251
 33
0.0
  0
LINE
  8
PANEL
 10
27.626444
 20
17.986902
 30
0.0
 11
33.317444
 21
17.779589
 31
0.0
  0
LINE
  8
PANEL
 10
16.626444
 20
17.986902
 30
0.0
 11
25.71303
 21
17.655895
 31
0.0
  0
LINE
  8
CLIP
 10
26.667868
 20
17.66382
 30
0.0
 11
26.667868
 21
17.722381
 31
0.0
  0
LINE
  8
CLIP
 10
26.276973
 20
17.66382
 30
0.0
 11
26.276973
 21
17.722381
 31
0.0
  0
ARC
  8
CLIP
 10
26.472421
 20
17.193606
 30
0.0
 40
0.56374
 50
69.714502
 51
110.285498
  0
LINE
  8
CLIP
 10
26.471973
 20
16.001445
 30
0.0
 11
26.536973
 21
16.209934
 31
0.0
  0
LINE
  8
CLIP
 10
26.471973
 20
16.001445
 30
0.0
 11
26.415825
 21
16.182191
 31
0.0
  0
LINE
  8
CLIP
 10
26.276973
 20
17.66382
 30
0.0
 11
26.667868
 21
17.66382
 31
0.0
  0
LINE
  8
CLIP
 10
26.536973
 20
17.66382
 30
0.0
 11
26.536973
 21
17.582663
 31
0.0
  0
LINE
  8
CLIP
 10
26.406973
 20
17.66382
 30
0.0
 11
26.406973
 21
17.541809
 31
0.0
  0
LINE
  8
CLIP
 10
26.406973
 20
17.541809
 30
0.0
 11
26.536973
 21
17.582663
 31
0.0
  0
LINE
  8
CLIP
 10
26.406973
 20
17.479409
 30
0.0
 11
26.536973
 21
17.520263
 31
0.0
  0
LINE
  8
CLIP
 10
26.406973
 20
17.479409
 30
0.0
 11
26.38038
 21
17.502252
 31
0.0
  0
LINE
  8
CLIP
 10
26.38038
 20
17.502252
 30
0.0
 11
26.406973
 21
17.541809
 31
0.0
  0
LINE
  8
CLIP
 10
26.536973
 20
17.520263
 30
0.0
 11
26.565881
 21
17.560548
 31
0.0
  0
LINE
  8
CLIP
 10
26.565881
 20
17.560548
 30
0.0
 11
26.536973
 21
17.582663
 31
0.0
  0
LINE
  8
CLIP
 10
26.406973
 20
17.479409
 30
0.0
 11
26.406973
 21
17.411809
 31
0.0
  0
LINE
  8
CLIP
 10
26.536973
 20
17.520263
 30
0.0
 11
26.536973
 21
17.452663
 31
0.0
  0
LINE
  8
CLIP
 10
26.406973
 20
17.349409
 30
0.0
 11
26.536973
 21
17.390263
 31
0.0
  0
LINE
  8
CLIP
 10
26.406973
 20
17.411809
 30
0.0
 11
26.536973
 21
17.452663
 31
0.0
  0
LINE
  8
CLIP
 10
26.38038
 20
17.372252
 30
0.0
 11
26.406973
 21
17.411809
 31
0.0
  0
LINE
  8
CLIP
 10
26.406973
 20
17.349409
 30
0.0
 11
26.38038
 21
17.372252
 31
0.0
  0
LINE
  8
CLIP
 10
26.536973
 20
17.390263
 30
0.0
 11
26.565881
 21
17.430548
 31
0.0
  0
LINE
  8
CLIP
 10
26.565881
 20
17.430548
 30
0.0
 11
26.536973
 21
17.452663
 31
0.0
  0
LINE
  8
CLIP
 10
26.406973
 20
17.219409
 30
0.0
 11
26.536973
 21
17.260263
 31
0.0
  0
LINE
  8
CLIP
 10
26.406973
 20
17.281809
 30
0.0
 11
26.536973
 21
17.322663
 31
0.0
  0
LINE
  8
CLIP
 10
26.38038
 20
17.242252
 30
0.0
 11
26.406973
 21
17.281809
 31
0.0
  0
LINE
  8
CLIP
 10
26.406973
 20
17.219409
 30
0.0
 11
26.38038
 21
17.242252
 31
0.0
  0
LINE
  8
CLIP
 10
26.536973
 20
17.260263
 30
0.0
 11
26.565881
 21
17.300548
 31
0.0
  0
LINE
  8
CLIP
 10
26.565881
 20
17.300548
 30
0.0
 11
26.536973
 21
17.322663
 31
0.0
  0
LINE
  8
CLIP
 10
26.406973
 20
17.089409
 30
0.0
 11
26.536973
 21
17.130263
 31
0.0
  0
LINE
  8
CLIP
 10
26.406973
 20
17.151809
 30
0.0
 11
26.536973
 21
17.192663
 31
0.0
  0
LINE
  8
CLIP
 10
26.38038
 20
17.112252
 30
0.0
 11
26.406973
 21
17.151809
 31
0.0
  0
LINE
  8
CLIP
 10
26.406973
 20
17.089409
 30
0.0
 11
26.38038
 21
17.112252
 31
0.0
  0
LINE
  8
CLIP
 10
26.536973
 20
17.130263
 30
0.0
 11
26.565881
 21
17.170548
 31
0.0
  0
LINE
  8
CLIP
 10
26.565881
 20
17.170548
 30
0.0
 11
26.536973
 21
17.192663
 31
0.0
  0
LINE
  8
CLIP
 10
26.406973
 20
16.959409
 30
0.0
 11
26.536973
 21
17.000263
 31
0.0
  0
LINE
  8
CLIP
 10
26.406973
 20
17.021809
 30
0.0
 11
26.536973
 21
17.062663
 31
0.0
  0
LINE
  8
CLIP
 10
26.38038
 20
16.982252
 30
0.0
 11
26.406973
 21
17.021809
 31
0.0
  0
LINE
  8
CLIP
 10
26.406973
 20
16.959409
 30
0.0
 11
26.38038
 21
16.982252
 31
0.0
  0
LINE
  8
CLIP
 10
26.536973
 20
17.000263
 30
0.0
 11
26.565881
 21
17.040548
 31
0.0
  0
LINE
  8
CLIP
 10
26.565881
 20
17.040548
 30
0.0
 11
26.536973
 21
17.062663
 31
0.0
  0
LINE
  8
CLIP
 10
26.406973
 20
16.829409
 30
0.0
 11
26.536973
 21
16.870263
 31
0.0
  0
LINE
  8
CLIP
 10
26.406973
 20
16.891809
 30
0.0
 11
26.536973
 21
16.932663
 31
0.0
  0
LINE
  8
CLIP
 10
26.38038
 20
16.852252
 30
0.0
 11
26.406973
 21
16.891809
 31
0.0
  0
LINE
  8
CLIP
 10
26.406973
 20
16.829409
 30
0.0
 11
26.38038
 21
16.852252
 31
0.0
  0
LINE
  8
CLIP
 10
26.536973
 20
16.870263
 30
0.0
 11
26.565881
 21
16.910548
 31
0.0
  0
LINE
  8
CLIP
 10
26.565881
 20
16.910548
 30
0.0
 11
26.536973
 21
16.932663
 31
0.0
  0
LINE
  8
CLIP
 10
26.406973
 20
16.699409
 30
0.0
 11
26.536973
 21
16.740263
 31
0.0
  0
LINE
  8
CLIP
 10
26.406973
 20
16.761809
 30
0.0
 11
26.536973
 21
16.802663
 31
0.0
  0
LINE
  8
CLIP
 10
26.38038
 20
16.722252
 30
0.0
 11
26.406973
 21
16.761809
 31
0.0
  0
LINE
  8
CLIP
 10
26.406973
 20
16.699409
 30
0.0
 11
26.38038
 21
16.722252
 31
0.0
  0
LINE
  8
CLIP
 10
26.536973
 20
16.740263
 30
0.0
 11
26.565881
 21
16.780548
 31
0.0
  0
LINE
  8
CLIP
 10
26.565881
 20
16.780548
 30
0.0
 11
26.536973
 21
16.802663
 31
0.0
  0
LINE
  8
CLIP
 10
26.406973
 20
16.569409
 30
0.0
 11
26.536973
 21
16.610263
 31
0.0
  0
LINE
  8
CLIP
 10
26.406973
 20
16.631809
 30
0.0
 11
26.536973
 21
16.672663
 31
0.0
  0
LINE
  8
CLIP
 10
26.38038
 20
16.592252
 30
0.0
 11
26.406973
 21
16.631809
 31
0.0
  0
LINE
  8
CLIP
 10
26.406973
 20
16.569409
 30
0.0
 11
26.38038
 21
16.592252
 31
0.0
  0
LINE
  8
CLIP
 10
26.536973
 20
16.610263
 30
0.0
 11
26.565881
 21
16.650548
 31
0.0
  0
LINE
  8
CLIP
 10
26.565881
 20
16.650548
 30
0.0
 11
26.536973
 21
16.672663
 31
0.0
  0
LINE
  8
CLIP
 10
26.406973
 20
16.439409
 30
0.0
 11
26.536973
 21
16.480263
 31
0.0
  0
LINE
  8
CLIP
 10
26.406973
 20
16.501809
 30
0.0
 11
26.536973
 21
16.542663
 31
0.0
  0
LINE
  8
CLIP
 10
26.38038
 20
16.462252
 30
0.0
 11
26.406973
 21
16.501809
 31
0.0
  0
LINE
  8
CLIP
 10
26.406973
 20
16.439409
 30
0.0
 11
26.38038
 21
16.462252
 31
0.0
  0
LINE
  8
CLIP
 10
26.536973
 20
16.480263
 30
0.0
 11
26.565881
 21
16.520548
 31
0.0
  0
LINE
  8
CLIP
 10
26.565881
 20
16.520548
 30
0.0
 11
26.536973
 21
16.542663
 31
0.0
  0
LINE
  8
CLIP
 10
26.406973
 20
16.309409
 30
0.0
 11
26.536973
 21
16.350263
 31
0.0
  0
LINE
  8
CLIP
 10
26.406973
 20
16.371809
 30
0.0
 11
26.536973
 21
16.412663
 31
0.0
  0
LINE
  8
CLIP
 10
26.38038
 20
16.332252
 30
0.0
 11
26.406973
 21
16.371809
 31
0.0
  0
LINE
  8
CLIP
 10
26.406973
 20
16.309409
 30
0.0
 11
26.38038
 21
16.332252
 31
0.0
  0
LINE
  8
CLIP
 10
26.536973
 20
16.350263
 30
0.0
 11
26.565881
 21
16.390548
 31
0.0
  0
LINE
  8
CLIP
 10
26.565881
 20
16.390548
 30
0.0
 11
26.536973
 21
16.412663
 31
0.0
  0
LINE
  8
CLIP
 10
26.415825
 20
16.182191
 30
0.0
 11
26.536973
 21
16.220263
 31
0.0
  0
LINE
  8
CLIP
 10
26.406973
 20
16.241809
 30
0.0
 11
26.536973
 21
16.282663
 31
0.0
  0
LINE
  8
CLIP
 10
26.38038
 20
16.202252
 30
0.0
 11
26.406973
 21
16.241809
 31
0.0
  0
LINE
  8
CLIP
 10
26.536973
 20
16.220263
 30
0.0
 11
26.565881
 21
16.260548
 31
0.0
  0
LINE
  8
CLIP
 10
26.565881
 20
16.260548
 30
0.0
 11
26.536973
 21
16.282663
 31
0.0
  0
LINE
  8
CLIP
 10
26.406973
 20
17.349409
 30
0.0
 11
26.406973
 21
17.281809
 31
0.0
  0
LINE
  8
CLIP
 10
26.536973
 20
17.390263
 30
0.0
 11
26.536973
 21
17.322663
 31
0.0
  0
LINE
  8
CLIP
 10
26.536973
 20
17.260263
 30
0.0
 11
26.536973
 21
17.192663
 31
0.0
  0
LINE
  8
CLIP
 10
26.406973
 20
17.219409
 30
0.0
 11
26.406973
 21
17.151809
 31
0.0
  0
LINE
  8
CLIP
 10
26.406973
 20
17.089409
 30
0.0
 11
26.406973
 21
17.021809
 31
0.0
  0
LINE
  8
CLIP
 10
26.536973
 20
17.130263
 30
0.0
 11
26.536973
 21
17.062663
 31
0.0
  0
LINE
  8
CLIP
 10
26.406973
 20
16.959409
 30
0.0
 11
26.406973
 21
16.891809
 31
0.0
  0
LINE
  8
CLIP
 10
26.536973
 20
17.000263
 30
0.0
 11
26.536973
 21
16.932663
 31
0.0
  0
LINE
  8
CLIP
 10
26.406973
 20
16.829409
 30
0.0
 11
26.406973
 21
16.761809
 31
0.0
  0
LINE
  8
CLIP
 10
26.536973
 20
16.870263
 30
0.0
 11
26.536973
 21
16.802663
 31
0.0
  0
LINE
  8
CLIP
 10
26.406973
 20
16.699409
 30
0.0
 11
26.406973
 21
16.631809
 31
0.0
  0
LINE
  8
CLIP
 10
26.536973
 20
16.740263
 30
0.0
 11
26.536973
 21
16.672663
 31
0.0
  0
LINE
  8
CLIP
 10
26.406973
 20
16.569409
 30
0.0
 11
26.406973
 21
16.501809
 31
0.0
  0
LINE
  8
CLIP
 10
26.536973
 20
16.610263
 30
0.0
 11
26.536973
 21
16.542663
 31
0.0
  0
LINE
  8
CLIP
 10
26.406973
 20
16.439409
 30
0.0
 11
26.406973
 21
16.371809
 31
0.0
  0
LINE
  8
CLIP
 10
26.536973
 20
16.480263
 30
0.0
 11
26.536973
 21
16.412663
 31
0.0
  0
LINE
  8
CLIP
 10
26.406973
 20
16.309409
 30
0.0
 11
26.406973
 21
16.241809
 31
0.0
  0
LINE
  8
CLIP
 10
26.536973
 20
16.350263
 30
0.0
 11
26.536973
 21
16.282663
 31
0.0
  0
LINE
  8
CLIP
 10
26.536973
 20
16.220263
 30
0.0
 11
26.536973
 21
16.209934
 31
0.0
  0
LINE
  8
CLIP
 10
26.415825
 20
16.182191
 30
0.0
 11
26.38038
 21
16.202252
 31
0.0
  0
LINE
  8
CLIP
 10
25.86902
 20
17.66382
 30
0.0
 11
26.815875
 21
17.66382
 31
0.0
  0
LINE
  8
CLIP
 10
26.815875
 20
17.66382
 30
0.0
 11
26.815875
 21
18.450645
 31
0.0
  0
ARC
  8
CLIP
 10
26.8955
 20
18.450645
 30
0.0
 40
0.079625
 50
61.817033
 51
180.0
  0
LINE
  8
CLIP
 10
26.933106
 20
18.52083
 30
0.0
 11
27.438999
 21
18.249766
 31
0.0
  0
LINE
  8
CLIP
 10
26.959062
 20
18.506922
 30
0.0
 11
27.068832
 21
18.114612
 31
0.0
  0
LINE
  8
CLIP
 10
27.438999
 20
18.079986
 30
0.0
 11
27.438999
 21
18.249766
 31
0.0
  0
LINE
  8
CLIP
 10
27.002913
 20
18.076554
 30
0.0
 11
27.068832
 21
18.114612
 31
0.0
  0
LINE
  8
PANEL
 10
26.903593
 20
17.744076
 30
0.0
 11
26.916266
 21
18.470141
 31
0.0
  0
ARC
  8
PANEL
 10
26.936218
 20
17.743506
 30
0.0
 40
0.03263
 50
179.0
 51
270.0
  0
LINE
  8
PANEL
 10
27.10284
 20
17.710876
 30
0.0
 11
26.936218
 21
17.710876
 31
0.0
  0
ARC
  8
PANEL
 10
27.10284
 20
17.661346
 30
0.0
 40
0.04953
 50
35.125418
 51
90.0
  0
ARC
  8
PANEL
 10
27.211012
 20
17.737442
 30
0.0
 40
0.082726
 50
215.125418
 51
324.874582
  0
ARC
  8
PANEL
 10
27.319183
 20
17.661346
 30
0.0
 40
0.04953
 50
90.0
 51
144.874582
  0
LINE
  8
PANEL
 10
28.004997
 20
17.710876
 30
0.0
 11
27.319183
 21
17.710876
 31
0.0
  0
ARC
  8
PANEL
 10
28.005008
 20
17.767419
 30
0.0
 40
0.05655
 50
270.0
 51
83.0
  0
LINE
  8
PANEL
 10
28.014825
 20
17.8224
 30
0.0
 11
27.621769
 21
17.877641
 31
0.0
  0
ARC
  8
PANEL
 10
27.62964
 20
17.93364
 30
0.0
 40
0.05655
 50
180.081321
 51
262.0
  0
ARC
  8
PANEL
 10
27.62652
 20
17.933472
 30
0.0
 40
0.05343
 50
90.081321
 51
180.081321
  0
LINE
  8
PANEL
 10
27.60527
 20
17.768726
 30
0.0
 11
27.914459
 21
17.768726
 31
0.0
  0
ARC
  8
PANEL
 10
27.60527
 20
17.833596
 30
0.0
 40
0.06487
 50
185.0
 51
270.0
  0
LINE
  8
PANEL
 10
27.421511
 20
19.189664
 30
0.0
 11
27.540647
 21
17.827943
 31
0.0
  0
ARC
  8
PANEL
 10
27.324512
 20
19.181178
 30
0.0
 40
0.09737
 50
5.0
 51
91.0
  0
LINE
  8
PANEL
 10
25.974526
 20
19.254998
 30
0.0
 11
27.322813
 21
19.278533
 31
0.0
  0
ARC
  8
PANEL
 10
25.976225
 20
19.157643
 30
0.0
 40
0.09737
 50
91.0
 51
176.0
  0
LINE
  8
PANEL
 10
25.777825
 20
17.71624
 30
0.0
 11
25.879093
 21
19.164436
 31
0.0
  0
ARC
  8
PANEL
 10
25.713113
 20
17.720765
 30
0.0
 40
0.06487
 50
269.926498
 51
356.0
  0
ARC
  8
PANEL
 10
14.713113
 20
17.720765
 30
0.0
 40
0.06487
 50
269.926498
 51
356.0
  0
LINE
  8
PANEL
 10
14.777825
 20
17.71624
 30
0.0
 11
14.879093
 21
19.164436
 31
0.0
  0
ARC
  8
PANEL
 10
14.976225
 20
19.157643
 30
0.0
 40
0.09737
 50
91.0
 51
176.0
  0
LINE
  8
PANEL
 10
14.974526
 20
19.254998
 30
0.0
 11
16.322813
 21
19.278533
 31
0.0
  0
ARC
  8
PANEL
 10
16.324512
 20
19.181178
 30
0.0
 40
0.09737
 50
5.0
 51
91.0
  0
LINE
  8
PANEL
 10
16.421511
 20
19.189664
 30
0.0
 11
16.540647
 21
17.827943
 31
0.0
  0
ARC
  8
PANEL
 10
16.60527
 20
17.833596
 30
0.0
 40
0.06487
 50
185.0
 51
270.0
  0
LINE
  8
PANEL
 10
16.60527
 20
17.768726
 30
0.0
 11
16.914459
 21
17.768726
 31
0.0
  0
ARC
  8
PANEL
 10
16.62652
 20
17.933472
 30
0.0
 40
0.05343
 50
90.081321
 51
180.081321
  0
ARC
  8
PANEL
 10
16.62964
 20
17.93364
 30
0.0
 40
0.05655
 50
180.081321
 51
262.0
  0
LINE
  8
PANEL
 10
17.014825
 20
17.8224
 30
0.0
 11
16.621769
 21
17.877641
 31
0.0
  0
ARC
  8
PANEL
 10
17.005008
 20
17.767419
 30
0.0
 40
0.05655
 50
270.0
 51
83.0
  0
LINE
  8
PANEL
 10
17.004997
 20
17.710876
 30
0.0
 11
16.319183
 21
17.710876
 31
0.0
  0
ARC
  8
PANEL
 10
16.319183
 20
17.661346
 30
0.0
 40
0.04953
 50
90.0
 51
144.874582
  0
ARC
  8
PANEL
 10
16.211012
 20
17.737442
 30
0.0
 40
0.082726
 50
215.125418
 51
324.874582
  0
ARC
  8
PANEL
 10
16.10284
 20
17.661346
 30
0.0
 40
0.04953
 50
35.125418
 51
90.0
  0
LINE
  8
PANEL
 10
16.10284
 20
17.710876
 30
0.0
 11
15.936218
 21
17.710876
 31
0.0
  0
ARC
  8
PANEL
 10
15.936218
 20
17.743506
 30
0.0
 40
0.03263
 50
179.0
 51
270.0
  0
LINE
  8
PANEL
 10
15.903593
 20
17.744076
 30
0.0
 11
15.916266
 21
18.470141
 31
0.0
  0
LINE
  8
CLIP
 10
16.002913
 20
18.076554
 30
0.0
 11
16.068832
 21
18.114612
 31
0.0
  0
LINE
  8
CLIP
 10
16.438999
 20
18.079986
 30
0.0
 11
16.438999
 21
18.249766
 31
0.0
  0
LINE
  8
CLIP
 10
15.959062
 20
18.506922
 30
0.0
 11
16.068832
 21
18.114612
 31
0.0
  0
LINE
  8
CLIP
 10
15.933106
 20
18.52083
 30
0.0
 11
16.438999
 21
18.249766
 31
0.0
  0
ARC
  8
CLIP
 10
15.8955
 20
18.450645
 30
0.0
 40
0.079625
 50
61.817033
 51
180.0
  0
LINE
  8
CLIP
 10
15.815875
 20
17.66382
 30
0.0
 11
15.815875
 21
18.450645
 31
0.0
  0
LINE
  8
CLIP
 10
14.86902
 20
17.66382
 30
0.0
 11
15.815875
 21
17.66382
 31
0.0
  0
LINE
  8
CLIP
 10
15.415825
 20
16.182191
 30
0.0
 11
15.38038
 21
16.202252
 31
0.0
  0
LINE
  8
CLIP
 10
15.536973
 20
16.220263
 30
0.0
 11
15.536973
 21
16.209934
 31
0.0
  0
LINE
  8
CLIP
 10
15.536973
 20
16.350263
 30
0.0
 11
15.536973
 21
16.282663
 31
0.0
  0
LINE
  8
CLIP
 10
15.406973
 20
16.309409
 30
0.0
 11
15.406973
 21
16.241809
 31
0.0
  0
LINE
  8
CLIP
 10
15.536973
 20
16.480263
 30
0.0
 11
15.536973
 21
16.412663
 31
0.0
  0
LINE
  8
CLIP
 10
15.406973
 20
16.439409
 30
0.0
 11
15.406973
 21
16.371809
 31
0.0
  0
LINE
  8
CLIP
 10
15.536973
 20
16.610263
 30
0.0
 11
15.536973
 21
16.542663
 31
0.0
  0
LINE
  8
CLIP
 10
15.406973
 20
16.569409
 30
0.0
 11
15.406973
 21
16.501809
 31
0.0
  0
LINE
  8
CLIP
 10
15.536973
 20
16.740263
 30
0.0
 11
15.536973
 21
16.672663
 31
0.0
  0
LINE
  8
CLIP
 10
15.406973
 20
16.699409
 30
0.0
 11
15.406973
 21
16.631809
 31
0.0
  0
LINE
  8
CLIP
 10
15.536973
 20
16.870263
 30
0.0
 11
15.536973
 21
16.802663
 31
0.0
  0
LINE
  8
CLIP
 10
15.406973
 20
16.829409
 30
0.0
 11
15.406973
 21
16.761809
 31
0.0
  0
LINE
  8
CLIP
 10
15.536973
 20
17.000263
 30
0.0
 11
15.536973
 21
16.932663
 31
0.0
  0
LINE
  8
CLIP
 10
15.406973
 20
16.959409
 30
0.0
 11
15.406973
 21
16.891809
 31
0.0
  0
LINE
  8
CLIP
 10
15.536973
 20
17.130263
 30
0.0
 11
15.536973
 21
17.062663
 31
0.0
  0
LINE
  8
CLIP
 10
15.406973
 20
17.089409
 30
0.0
 11
15.406973
 21
17.021809
 31
0.0
  0
LINE
  8
CLIP
 10
15.406973
 20
17.219409
 30
0.0
 11
15.406973
 21
17.151809
 31
0.0
  0
LINE
  8
CLIP
 10
15.536973
 20
17.260263
 30
0.0
 11
15.536973
 21
17.192663
 31
0.0
  0
LINE
  8
CLIP
 10
15.536973
 20
17.390263
 30
0.0
 11
15.536973
 21
17.322663
 31
0.0
  0
LINE
  8
CLIP
 10
15.406973
 20
17.349409
 30
0.0
 11
15.406973
 21
17.281809
 31
0.0
  0
LINE
  8
CLIP
 10
15.565881
 20
16.260548
 30
0.0
 11
15.536973
 21
16.282663
 31
0.0
  0
LINE
  8
CLIP
 10
15.536973
 20
16.220263
 30
0.0
 11
15.565881
 21
16.260548
 31
0.0
  0
LINE
  8
CLIP
 10
15.38038
 20
16.202252
 30
0.0
 11
15.406973
 21
16.241809
 31
0.0
  0
LINE
  8
CLIP
 10
15.406973
 20
16.241809
 30
0.0
 11
15.536973
 21
16.282663
 31
0.0
  0
LINE
  8
CLIP
 10
15.415825
 20
16.182191
 30
0.0
 11
15.536973
 21
16.220263
 31
0.0
  0
LINE
  8
CLIP
 10
15.565881
 20
16.390548
 30
0.0
 11
15.536973
 21
16.412663
 31
0.0
  0
LINE
  8
CLIP
 10
15.536973
 20
16.350263
 30
0.0
 11
15.565881
 21
16.390548
 31
0.0
  0
LINE
  8
CLIP
 10
15.406973
 20
16.309409
 30
0.0
 11
15.38038
 21
16.332252
 31
0.0
  0
LINE
  8
CLIP
 10
15.38038
 20
16.332252
 30
0.0
 11
15.406973
 21
16.371809
 31
0.0
  0
LINE
  8
CLIP
 10
15.406973
 20
16.371809
 30
0.0
 11
15.536973
 21
16.412663
 31
0.0
  0
LINE
  8
CLIP
 10
15.406973
 20
16.309409
 30
0.0
 11
15.536973
 21
16.350263
 31
0.0
  0
LINE
  8
CLIP
 10
15.565881
 20
16.520548
 30
0.0
 11
15.536973
 21
16.542663
 31
0.0
  0
LINE
  8
CLIP
 10
15.536973
 20
16.480263
 30
0.0
 11
15.565881
 21
16.520548
 31
0.0
  0
LINE
  8
CLIP
 10
15.406973
 20
16.439409
 30
0.0
 11
15.38038
 21
16.462252
 31
0.0
  0
LINE
  8
CLIP
 10
15.38038
 20
16.462252
 30
0.0
 11
15.406973
 21
16.501809
 31
0.0
  0
LINE
  8
CLIP
 10
15.406973
 20
16.501809
 30
0.0
 11
15.536973
 21
16.542663
 31
0.0
  0
LINE
  8
CLIP
 10
15.406973
 20
16.439409
 30
0.0
 11
15.536973
 21
16.480263
 31
0.0
  0
LINE
  8
CLIP
 10
15.565881
 20
16.650548
 30
0.0
 11
15.536973
 21
16.672663
 31
0.0
  0
LINE
  8
CLIP
 10
15.536973
 20
16.610263
 30
0.0
 11
15.565881
 21
16.650548
 31
0.0
  0
LINE
  8
CLIP
 10
15.406973
 20
16.569409
 30
0.0
 11
15.38038
 21
16.592252
 31
0.0
  0
LINE
  8
CLIP
 10
15.38038
 20
16.592252
 30
0.0
 11
15.406973
 21
16.631809
 31
0.0
  0
LINE
  8
CLIP
 10
15.406973
 20
16.631809
 30
0.0
 11
15.536973
 21
16.672663
 31
0.0
  0
LINE
  8
CLIP
 10
15.406973
 20
16.569409
 30
0.0
 11
15.536973
 21
16.610263
 31
0.0
  0
LINE
  8
CLIP
 10
15.565881
 20
16.780548
 30
0.0
 11
15.536973
 21
16.802663
 31
0.0
  0
LINE
  8
CLIP
 10
15.536973
 20
16.740263
 30
0.0
 11
15.565881
 21
16.780548
 31
0.0
  0
LINE
  8
CLIP
 10
15.406973
 20
16.699409
 30
0.0
 11
15.38038
 21
16.722252
 31
0.0
  0
LINE
  8
CLIP
 10
15.38038
 20
16.722252
 30
0.0
 11
15.406973
 21
16.761809
 31
0.0
  0
LINE
  8
CLIP
 10
15.406973
 20
16.761809
 30
0.0
 11
15.536973
 21
16.802663
 31
0.0
  0
LINE
  8
CLIP
 10
15.406973
 20
16.699409
 30
0.0
 11
15.536973
 21
16.740263
 31
0.0
  0
LINE
  8
CLIP
 10
15.565881
 20
16.910548
 30
0.0
 11
15.536973
 21
16.932663
 31
0.0
  0
LINE
  8
CLIP
 10
15.536973
 20
16.870263
 30
0.0
 11
15.565881
 21
16.910548
 31
0.0
  0
LINE
  8
CLIP
 10
15.406973
 20
16.829409
 30
0.0
 11
15.38038
 21
16.852252
 31
0.0
  0
LINE
  8
CLIP
 10
15.38038
 20
16.852252
 30
0.0
 11
15.406973
 21
16.891809
 31
0.0
  0
LINE
  8
CLIP
 10
15.406973
 20
16.891809
 30
0.0
 11
15.536973
 21
16.932663
 31
0.0
  0
LINE
  8
CLIP
 10
15.406973
 20
16.829409
 30
0.0
 11
15.536973
 21
16.870263
 31
0.0
  0
LINE
  8
CLIP
 10
15.565881
 20
17.040548
 30
0.0
 11
15.536973
 21
17.062663
 31
0.0
  0
LINE
  8
CLIP
 10
15.536973
 20
17.000263
 30
0.0
 11
15.565881
 21
17.040548
 31
0.0
  0
LINE
  8
CLIP
 10
15.406973
 20
16.959409
 30
0.0
 11
15.38038
 21
16.982252
 31
0.0
  0
LINE
  8
CLIP
 10
15.38038
 20
16.982252
 30
0.0
 11
15.406973
 21
17.021809
 31
0.0
  0
LINE
  8
CLIP
 10
15.406973
 20
17.021809
 30
0.0
 11
15.536973
 21
17.062663
 31
0.0
  0
LINE
  8
CLIP
 10
15.406973
 20
16.959409
 30
0.0
 11
15.536973
 21
17.000263
 31
0.0
  0
LINE
  8
CLIP
 10
15.565881
 20
17.170548
 30
0.0
 11
15.536973
 21
17.192663
 31
0.0
  0
LINE
  8
CLIP
 10
15.536973
 20
17.130263
 30
0.0
 11
15.565881
 21
17.170548
 31
0.0
  0
LINE
  8
CLIP
 10
15.406973
 20
17.089409
 30
0.0
 11
15.38038
 21
17.112252
 31
0.0
  0
LINE
  8
CLIP
 10
15.38038
 20
17.112252
 30
0.0
 11
15.406973
 21
17.151809
 31
0.0
  0
LINE
  8
CLIP
 10
15.406973
 20
17.151809
 30
0.0
 11
15.536973
 21
17.192663
 31
0.0
  0
LINE
  8
CLIP
 10
15.406973
 20
17.089409
 30
0.0
 11
15.536973
 21
17.130263
 31
0.0
  0
LINE
  8
CLIP
 10
15.565881
 20
17.300548
 30
0.0
 11
15.536973
 21
17.322663
 31
0.0
  0
LINE
  8
CLIP
 10
15.536973
 20
17.260263
 30
0.0
 11
15.565881
 21
17.300548
 31
0.0
  0
LINE
  8
CLIP
 10
15.406973
 20
17.219409
 30
0.0
 11
15.38038
 21
17.242252
 31
0.0
  0
LINE
  8
CLIP
 10
15.38038
 20
17.242252
 30
0.0
 11
15.406973
 21
17.281809
 31
0.0
  0
LINE
  8
CLIP
 10
15.406973
 20
17.281809
 30
0.0
 11
15.536973
 21
17.322663
 31
0.0
  0
LINE
  8
CLIP
 10
15.406973
 20
17.219409
 30
0.0
 11
15.536973
 21
17.260263
 31
0.0
  0
LINE
  8
CLIP
 10
15.565881
 20
17.430548
 30
0.0
 11
15.536973
 21
17.452663
 31
0.0
  0
LINE
  8
CLIP
 10
15.536973
 20
17.390263
 30
0.0
 11
15.565881
 21
17.430548
 31
0.0
  0
LINE
  8
CLIP
 10
15.406973
 20
17.349409
 30
0.0
 11
15.38038
 21
17.372252
 31
0.0
  0
LINE
  8
CLIP
 10
15.38038
 20
17.372252
 30
0.0
 11
15.406973
 21
17.411809
 31
0.0
  0
LINE
  8
CLIP
 10
15.406973
 20
17.411809
 30
0.0
 11
15.536973
 21
17.452663
 31
0.0
  0
LINE
  8
CLIP
 10
15.406973
 20
17.349409
 30
0.0
 11
15.536973
 21
17.390263
 31
0.0
  0
LINE
  8
CLIP
 10
15.536973
 20
17.520263
 30
0.0
 11
15.536973
 21
17.452663
 31
0.0
  0
LINE
  8
CLIP
 10
15.406973
 20
17.479409
 30
0.0
 11
15.406973
 21
17.411809
 31
0.0
  0
LINE
  8
CLIP
 10
15.565881
 20
17.560548
 30
0.0
 11
15.536973
 21
17.582663
 31
0.0
  0
LINE
  8
CLIP
 10
15.536973
 20
17.520263
 30
0.0
 11
15.565881
 21
17.560548
 31
0.0
  0
LINE
  8
CLIP
 10
15.38038
 20
17.502252
 30
0.0
 11
15.406973
 21
17.541809
 31
0.0
  0
LINE
  8
CLIP
 10
15.406973
 20
17.479409
 30
0.0
 11
15.38038
 21
17.502252
 31
0.0
  0
LINE
  8
CLIP
 10
15.406973
 20
17.479409
 30
0.0
 11
15.536973
 21
17.520263
 31
0.0
  0
LINE
  8
CLIP
 10
15.406973
 20
17.541809
 30
0.0
 11
15.536973
 21
17.582663
 31
0.0
  0
LINE
  8
CLIP
 10
15.406973
 20
17.66382
 30
0.0
 11
15.406973
 21
17.541809
 31
0.0
  0
LINE
  8
CLIP
 10
15.536973
 20
17.66382
 30
0.0
 11
15.536973
 21
17.582663
 31
0.0
  0
LINE
  8
CLIP
 10
15.276973
 20
17.66382
 30
0.0
 11
15.667868
 21
17.66382
 31
0.0
  0
LINE
  8
CLIP
 10
15.471973
 20
16.001445
 30
0.0
 11
15.415825
 21
16.182191
 31
0.0
  0
LINE
  8
CLIP
 10
15.471973
 20
16.001445
 30
0.0
 11
15.536973
 21
16.209934
 31
0.0
  0
ARC
  8
CLIP
 10
15.472421
 20
17.193606
 30
0.0
 40
0.56374
 50
69.714502
 51
110.285498
  0
LINE
  8
CLIP
 10
15.276973
 20
17.66382
 30
0.0
 11
15.276973
 21
17.722381
 31
0.0
  0
LINE
  8
CLIP
 10
15.667868
 20
17.66382
 30
0.0
 11
15.667868
 21
17.722381
 31
0.0
  0
TEXT
  8
DIM
 10
29.72714
 20
11.440926
 30
0.0
 40
0.375
  1
INTEGRAL PANEL CLIP
  7
ROMAND
  0
LINE
  8
DIM
 10
28.721927
 20
11.478112
 30
0.0
 11
29.504171
 21
11.478112
 31
0.0
  0
LINE
  8
DIM
 10
21.5342
 20
11.296967
 30
0.0
 11
22.233392
 21
11.296967
 31
0.0
  0
LINE
  8
DIM
 10
20.210343
 20
17.152175
 30
0.0
 11
21.5342
 21
11.296967
 31
0.0
  0
SOLID
  8
DIM
 10
20.169702
 20
17.142987
 30
0.0
 11
20.250984
 21
17.161364
 31
0.0
 12
20.15521
 22
17.39602
 32
0.0
 13
20.15521
 23
17.39602
 33
0.0
  0
LINE
  8
DIM
 10
20.865964
 20
9.751264
 30
0.0
 11
21.805724
 21
9.751264
 31
0.0
  0
LINE
  8
DIM
 10
18.834768
 20
16.36222
 30
0.0
 11
20.865964
 21
9.751264
 31
0.0
  0
SOLID
  8
DIM
 10
18.794938
 20
16.349982
 30
0.0
 11
18.874597
 21
16.374457
 31
0.0
 12
18.761343
 22
16.601194
 32
0.0
 13
18.761343
 23
16.601194
 33
0.0
  0
TEXT
  8
DIM
 10
12.357376
 20
25.561907
 30
0.0
 40
0.375
  1
W/ "J" CLOSURE
  7
ROMAND
 72
     4
 11
14.839518
 21
25.722621
 31
0.0
  0
TEXT
  8
DIM
 10
12.318106
 20
26.142264
 30
0.0
 40
0.375
  1
PA-151 GABLE FLASHING
  7
ROMAND
 72
     4
 11
16.014534
 21
26.329764
 31
0.0
  0
LINE
  8
DIM
 10
11.488513
 20
25.977678
 30
0.0
 11
12.070712
 21
25.977678
 31
0.0
  0
LINE
  8
DIM
 10
12.11288
 20
18.369991
 30
0.0
 11
13.320102
 21
23.379592
 31
0.0
  0
LINE
  8
DIM
 10
13.320102
 20
23.379592
 30
0.0
 11
13.702047
 21
23.379592
 31
0.0
  0
LINE
  8
DIM
 10
10.186317
 20
18.154551
 30
0.0
 11
12.11288
 21
18.369991
 31
0.0
  0
SOLID
  8
DIM
 10
10.190947
 20
18.113142
 30
0.0
 11
10.181686
 21
18.195959
 31
0.0
 12
9.937865
 22
18.126767
 32
0.0
 13
9.937865
 23
18.126767
 33
0.0
  0
LINE
  8
WOOD
 10
10.134242
 20
8.516357
 30
0.0
 11
11.633561
 21
8.516357
 31
0.0
  0
LINE
  8
0
 10
34.982514
 20
18.06158
 30
0.0
 11
33.714883
 21
18.587456
 31
0.0
  0
LINE
  8
0
 10
33.714883
 20
18.587456
 30
0.0
 11
33.714883
 21
21.867443
 31
0.0
  0
LINE
  8
0
 10
32.525132
 20
17.645406
 30
0.0
 11
33.714883
 21
17.187953
 31
0.0
  0
LINE
  8
0
 10
34.982514
 20
18.06158
 30
0.0
 11
32.525132
 21
17.645406
 31
0.0
  0
LINE
  8
0
 10
33.714883
 20
12.701641
 30
0.0
 11
33.714883
 21
17.187953
 31
0.0
  0
LINE
  8
DIM
 10
10.264723
 20
19.520322
 30
0.0
 11
11.488513
 21
25.977678
 31
0.0
  0
SOLID
  8
DIM
 10
10.305661
 20
19.512564
 30
0.0
 11
10.223785
 21
19.528081
 31
0.0
 12
10.218172
 22
19.274694
 32
0.0
 13
10.218172
 23
19.274694
 33
0.0
  0
ARC
  8
FLASH
 10
11.243402
 20
19.19444
 30
0.0
 40
0.0625
 50
270.0
 51
90.0
  0
LINE
  8
FLASH
 10
11.243402
 20
19.13194
 30
0.0
 11
10.805902
 21
19.13194
 31
0.0
  0
LINE
  8
FLASH
 10
9.673117
 20
19.25694
 30
0.0
 11
11.243402
 21
19.25694
 31
0.0
  0
LINE
  8
FLASH
 10
9.771043
 20
19.19444
 30
0.0
 11
11.238092
 21
19.19444
 31
0.0
  0
LINE
  8
FLASH
 10
9.771043
 20
17.56944
 30
0.0
 11
9.771043
 21
19.19444
 31
0.0
  0
LINE
  8
FLASH
 10
12.646043
 20
17.56944
 30
0.0
 11
9.771043
 21
17.56944
 31
0.0
  0
LINE
  8
WOOD
 10
10.134242
 20
8.516357
 30
0.0
 11
11.63218
 21
16.523733
 31
0.0
  0
LINE
  8
WOOD
 10
10.134242
 20
16.523733
 30
0.0
 11
10.134242
 21
8.516357
 31
0.0
  0
LINE
  8
WOOD
 10
11.633561
 20
8.516357
 30
0.0
 11
10.134242
 21
16.523733
 31
0.0
  0
LINE
  8
WOOD
 10
11.63218
 20
16.523733
 30
0.0
 11
11.63218
 21
8.523733
 31
0.0
  0
LINE
  8
WOOD
 10
10.134242
 20
16.523733
 30
0.0
 11
11.63218
 21
16.523733
 31
0.0
  0
TEXT
  8
DIM
 10
13.69374
 20
11.491594
 30
0.0
 40
0.375
  1
PA-5 KEEPER
  7
ROMAND
  0
LINE
  8
DIM
 10
12.69374
 20
11.679094
 30
0.0
 11
13.44374
 21
11.679094
 31
0.0
  0
LINE
  8
CLIP
 10
11.293118
 20
15.058016
 30
0.0
 11
11.137609
 21
15.090089
 31
0.0
  0
LINE
  8
CLIP
 10
11.293118
 20
15.058016
 30
0.0
 11
11.15435
 21
15.026081
 31
0.0
  0
LINE
  8
CLIP
 10
9.781103
 20
15.026727
 30
0.0
 11
11.15435
 21
15.026081
 31
0.0
  0
LINE
  8
CLIP
 10
9.781133
 20
15.090727
 30
0.0
 11
11.137609
 21
15.090089
 31
0.0
  0
LINE
  8
CLIP
 10
9.75605
 20
14.914653
 30
0.0
 11
9.782912
 21
14.914988
 31
0.0
  0
LINE
  8
CLIP
 10
9.756185
 20
15.202177
 30
0.0
 11
9.781185
 21
15.202165
 31
0.0
  0
LINE
  8
CLIP
 10
9.756185
 20
15.202177
 30
0.0
 11
9.75605
 21
14.914653
 31
0.0
  0
LINE
  8
CLIP
 10
9.781185
 20
14.509575
 30
0.0
 11
9.477356
 21
14.104731
 31
0.0
  0
LINE
  8
CLIP
 10
9.781185
 20
16.280794
 30
0.0
 11
9.781185
 21
14.509575
 31
0.0
  0
ARC
  8
FLASH
 10
9.363174
 20
14.115882
 30
0.0
 40
0.109065
 50
146.740963
 51
267.280518
  0
LINE
  8
FLASH
 10
9.357999
 20
14.00694
 30
0.0
 11
9.754109
 21
14.069135
 31
0.0
  0
LINE
  8
FLASH
 10
9.673117
 20
14.576839
 30
0.0
 11
9.271974
 21
14.175696
 31
0.0
  0
LINE
  8
FLASH
 10
9.673117
 20
19.25694
 30
0.0
 11
9.673117
 21
14.576839
 31
0.0
  0
LINE
  8
WOOD
 10
10.109049
 20
17.226194
 30
0.0
 11
10.109049
 21
16.601194
 31
0.0
  0
TEXT
  8
DIM
 10
22.516823
 20
11.13876
 30
0.0
 40
0.375
  1
30# ROOFING FELT
 50
0.0
  7
ROMAND
  0
LINE
  8
PANEL
 10
9.937865
 20
19.19444
 30
0.0
 11
9.937865
 21
17.741737
 31
0.0
  0
LINE
  8
WOOD
 10
10.109049
 20
16.601194
 30
0.0
 11
33.714883
 21
16.601194
 31
0.0
  0
LINE
  8
WOOD
 10
10.109049
 20
16.913694
 30
0.0
 11
33.714883
 21
16.913694
 31
0.0
  0
LINE
  8
WOOD
 10
10.109049
 20
17.226194
 30
0.0
 11
33.615424
 21
17.226194
 31
0.0
  0
TEXT
  8
DIM
 10
22.226468
 20
9.571829
 30
0.0
 40
0.375
  1
PLYWOOD DECKING
  7
ROMAND
  0
TEXT
  8
DIM
 10
29.806264
 20
10.827301
 30
0.0
 40
0.375
  1
W/FASTENERS
  7
ROMAND
  0
LINE
  8
PANEL
 10
9.937865
 20
17.741737
 30
0.0
 11
14.71303
 21
17.655895
 31
0.0
  0
LINE
  8
0
 10
10.740354
 20
17.56944
 30
0.0
 11
10.740354
 21
17.727311
 31
0.0
  0
LINE
  8
0
 10
11.240354
 20
17.56944
 30
0.0
 11
11.240354
 21
17.718322
 31
0.0
  0
SOLID
  8
0
 10
10.740354
 20
17.56944
 30
0.0
 11
11.240354
 21
17.56944
 31
0.0
 12
10.740354
 22
17.727311
 32
0.0
 13
11.240354
 23
17.718322
 33
0.0
  0
SOLID
  8
DIM
 10
9.935746
 20
14.543367
 30
0.0
 11
9.996377
 21
14.600536
 31
0.0
 12
9.794554
 22
14.753845
 32
0.0
 13
9.794554
 23
14.753845
 33
0.0
  0
LINE
  8
DIM
 10
9.966062
 20
14.571952
 30
0.0
 11
12.69374
 21
11.679094
 31
0.0
  0
SOLID
  8
DIM
 10
11.176467
 20
17.278308
 30
0.0
 11
11.257405
 21
17.298147
 31
0.0
 12
11.157419
 22
17.531039
 32
0.0
 13
11.157419
 23
17.531039
 33
0.0
  0
LINE
  8
DIM
 10
11.216936
 20
17.288227
 30
0.0
 11
12.123814
 21
13.588415
 31
0.0
  0
LINE
  8
DIM
 10
12.123814
 20
13.588415
 30
0.0
 11
12.69374
 21
13.588415
 31
0.0
  0
TEXT
  8
DIM
 10
12.94374
 20
13.400915
 30
0.0
 40
0.375
  1
SEALANT
  7
ROMAND
  0
LINE
  8
CLIP
 10
11.863957
 20
17.312304
 30
0.0
 11
11.864449
 21
17.256146
 31
0.0
  0
LINE
  8
CLIP
 10
11.755311
 20
17.385413
 30
0.0
 11
11.755804
 21
17.329255
 31
0.0
  0
LINE
  8
CLIP
 10
11.755804
 20
17.329255
 30
0.0
 11
11.863502
 21
17.364142
 31
0.0
  0
LINE
  8
CLIP
 10
11.863957
 20
17.312304
 30
0.0
 11
11.756259
 21
17.277417
 31
0.0
  0
LINE
  8
CLIP
 10
11.890521
 20
17.021993
 30
0.0
 11
11.866345
 21
17.040154
 31
0.0
  0
LINE
  8
CLIP
 10
11.868695
 20
16.772324
 30
0.0
 11
11.76833
 21
16.739813
 31
0.0
  0
LINE
  8
CLIP
 10
11.816293
 20
16.59007
 30
0.0
 11
11.76833
 21
16.739813
 31
0.0
  0
LINE
  8
CLIP
 10
11.867293
 20
16.932158
 30
0.0
 11
11.759595
 21
16.897272
 31
0.0
  0
LINE
  8
CLIP
 10
11.867748
 20
16.88032
 30
0.0
 11
11.76005
 21
16.845434
 31
0.0
  0
LINE
  8
CLIP
 10
11.8668
 20
16.988316
 30
0.0
 11
11.759102
 21
16.953429
 31
0.0
  0
LINE
  8
CLIP
 10
11.86824
 20
16.824162
 30
0.0
 11
11.760542
 21
16.789276
 31
0.0
  0
LINE
  8
CLIP
 10
11.865852
 20
17.096312
 30
0.0
 11
11.866345
 21
17.040154
 31
0.0
  0
LINE
  8
CLIP
 10
11.864904
 20
17.204308
 30
0.0
 11
11.888625
 21
17.237984
 31
0.0
  0
LINE
  8
CLIP
 10
11.888625
 20
17.237984
 30
0.0
 11
11.864449
 21
17.256146
 31
0.0
  0
LINE
  8
CLIP
 10
11.735896
 20
17.080208
 30
0.0
 11
11.757699
 21
17.113263
 31
0.0
  0
LINE
  8
CLIP
 10
11.758154
 20
17.061425
 30
0.0
 11
11.735896
 21
17.080208
 31
0.0
  0
LINE
  8
CLIP
 10
11.865852
 20
17.096312
 30
0.0
 11
11.889573
 21
17.129989
 31
0.0
  0
LINE
  8
CLIP
 10
11.889573
 20
17.129989
 30
0.0
 11
11.865397
 21
17.14815
 31
0.0
  0
LINE
  8
CLIP
 10
11.864904
 20
17.204308
 30
0.0
 11
11.865397
 21
17.14815
 31
0.0
  0
LINE
  8
CLIP
 10
11.757206
 20
17.169421
 30
0.0
 11
11.757699
 21
17.113263
 31
0.0
  0
LINE
  8
CLIP
 10
11.864904
 20
17.204308
 30
0.0
 11
11.757206
 21
17.169421
 31
0.0
  0
LINE
  8
CLIP
 10
11.865397
 20
17.14815
 30
0.0
 11
11.757699
 21
17.113263
 31
0.0
  0
LINE
  8
CLIP
 10
11.865852
 20
17.096312
 30
0.0
 11
11.758154
 21
17.061425
 31
0.0
  0
LINE
  8
CLIP
 10
11.734
 20
17.296199
 30
0.0
 11
11.755804
 21
17.329255
 31
0.0
  0
LINE
  8
CLIP
 10
11.756259
 20
17.277417
 30
0.0
 11
11.734
 21
17.296199
 31
0.0
  0
LINE
  8
CLIP
 10
11.734948
 20
17.188204
 30
0.0
 11
11.756751
 21
17.221259
 31
0.0
  0
LINE
  8
CLIP
 10
11.756259
 20
17.277417
 30
0.0
 11
11.756751
 21
17.221259
 31
0.0
  0
LINE
  8
CLIP
 10
11.757206
 20
17.169421
 30
0.0
 11
11.734948
 21
17.188204
 31
0.0
  0
LINE
  8
CLIP
 10
11.864449
 20
17.256146
 30
0.0
 11
11.756751
 21
17.221259
 31
0.0
  0
LINE
  8
CLIP
 10
11.759102
 20
16.953429
 30
0.0
 11
11.759595
 21
16.897272
 31
0.0
  0
LINE
  8
CLIP
 10
11.737791
 20
16.864216
 30
0.0
 11
11.759595
 21
16.897272
 31
0.0
  0
LINE
  8
CLIP
 10
11.76005
 20
16.845434
 30
0.0
 11
11.737791
 21
16.864216
 31
0.0
  0
LINE
  8
CLIP
 10
11.76005
 20
16.845434
 30
0.0
 11
11.760542
 21
16.789276
 31
0.0
  0
LINE
  8
CLIP
 10
11.736843
 20
16.972212
 30
0.0
 11
11.758647
 21
17.005267
 31
0.0
  0
LINE
  8
CLIP
 10
11.759102
 20
16.953429
 30
0.0
 11
11.736843
 21
16.972212
 31
0.0
  0
LINE
  8
CLIP
 10
11.738739
 20
16.75622
 30
0.0
 11
11.760542
 21
16.789276
 31
0.0
  0
LINE
  8
CLIP
 10
11.76833
 20
16.739813
 30
0.0
 11
11.738739
 21
16.75622
 31
0.0
  0
LINE
  8
CLIP
 10
11.866345
 20
17.040154
 30
0.0
 11
11.758647
 21
17.005267
 31
0.0
  0
LINE
  8
CLIP
 10
11.758154
 20
17.061425
 30
0.0
 11
11.758647
 21
17.005267
 31
0.0
  0
LINE
  8
CLIP
 10
11.816293
 20
16.59007
 30
0.0
 11
11.868771
 21
16.763743
 31
0.0
  0
LINE
  8
CLIP
 10
11.867748
 20
16.88032
 30
0.0
 11
11.891469
 21
16.913997
 31
0.0
  0
LINE
  8
CLIP
 10
11.867748
 20
16.88032
 30
0.0
 11
11.86824
 21
16.824162
 31
0.0
  0
LINE
  8
CLIP
 10
11.891469
 20
16.913997
 30
0.0
 11
11.867293
 21
16.932158
 31
0.0
  0
LINE
  8
CLIP
 10
11.8668
 20
16.988316
 30
0.0
 11
11.867293
 21
16.932158
 31
0.0
  0
LINE
  8
CLIP
 10
11.868695
 20
16.772324
 30
0.0
 11
11.868771
 21
16.763743
 31
0.0
  0
LINE
  8
CLIP
 10
11.892416
 20
16.806001
 30
0.0
 11
11.86824
 21
16.824162
 31
0.0
  0
LINE
  8
CLIP
 10
11.868695
 20
16.772324
 30
0.0
 11
11.892416
 21
16.806001
 31
0.0
  0
LINE
  8
CLIP
 10
11.8668
 20
16.988316
 30
0.0
 11
11.890521
 21
17.021993
 31
0.0
  0
LINE
  8
CLIP
 10
11.863009
 20
17.420299
 30
0.0
 11
11.88673
 21
17.453976
 31
0.0
  0
LINE
  8
CLIP
 10
11.88673
 20
17.453976
 30
0.0
 11
11.862554
 21
17.472137
 31
0.0
  0
LINE
  8
CLIP
 10
11.863009
 20
17.420299
 30
0.0
 11
11.863502
 21
17.364142
 31
0.0
  0
LINE
  8
CLIP
 10
11.863957
 20
17.312304
 30
0.0
 11
11.887678
 21
17.34598
 31
0.0
  0
LINE
  8
CLIP
 10
11.887678
 20
17.34598
 30
0.0
 11
11.863502
 21
17.364142
 31
0.0
  0
LINE
  8
CLIP
 10
11.970448
 20
17.56944
 30
0.0
 11
11.970021
 21
17.618089
 31
0.0
  0
LINE
  8
CLIP
 10
11.755311
 20
17.385413
 30
0.0
 11
11.733052
 21
17.404195
 31
0.0
  0
LINE
  8
CLIP
 10
11.733052
 20
17.404195
 30
0.0
 11
11.754856
 21
17.437251
 31
0.0
  0
LINE
  8
CLIP
 10
11.645717
 20
17.56659
 30
0.0
 11
11.64529
 21
17.615239
 31
0.0
  0
LINE
  8
CLIP
 10
11.753712
 20
17.567538
 30
0.0
 11
11.754856
 21
17.437251
 31
0.0
  0
LINE
  8
CLIP
 10
11.645717
 20
17.56659
 30
0.0
 11
11.970448
 21
17.56944
 31
0.0
  0
ARC
  8
CLIP
 10
11.81151
 20
17.177391
 30
0.0
 40
0.468338
 50
70.21731
 51
110.788306
  0
LINE
  8
CLIP
 10
11.754856
 20
17.437251
 30
0.0
 11
11.862554
 21
17.472137
 31
0.0
  0
LINE
  8
CLIP
 10
11.755311
 20
17.385413
 30
0.0
 11
11.863009
 21
17.420299
 31
0.0
  0
LINE
  8
CLIP
 10
11.861708
 20
17.568486
 30
0.0
 11
11.862554
 21
17.472137
 31
0.0
  0
TEXT
  8
DIM
 10
14.024209
 20
23.471513
 30
0.0
 40
0.375
  1
FIELD-FORM PANEL LEG TO
  7
ROMAND
  0
TEXT
  8
DIM
 10
14.024209
 20
22.86437
 30
0.0
 40
0.375
  1
I.D. OF "J" CLOSURE
  7
ROMAND
  0
POLYLINE
  8
0
 66
     1
 10
0.0
 20
0.0
 30
0.0
 40
0.05
 41
0.05
  0
VERTEX
  8
0
 10
33.120774
 20
17.416385
 30
0.0
 50
71.0
  0
VERTEX
  8
0
 10
9.973149
 20
17.416385
 30
0.0
 50
341.0
  0
SEQEND
  8
0
  0
POLYLINE
  8
0
 66
     1
 10
0.0
 20
0.0
 30
0.0
 40
0.05
 41
0.05
  0
VERTEX
  8
0
 10
9.973149
 20
14.859073
 30
0.0
  0
VERTEX
  8
0
 10
9.973149
 20
17.416385
 30
0.0
  0
SEQEND
  8
0
  0
ENDSEC
  0
EOF
